ISO-10303-21;
HEADER;
FILE_DESCRIPTION((''),'2;1');
FILE_NAME('APLR1000K300RSE','2023-02-07T08:52:09',('Administrator'),(''),
'CREO PARAMETRIC BY PTC INC, 2020053','CREO PARAMETRIC BY PTC INC, 2020053','');
FILE_SCHEMA(('CONFIG_CONTROL_DESIGN'));
ENDSEC;
DATA;
#1=CARTESIAN_POINT('',(0.E0,0.E0,-2.6E1));
#2=DIRECTION('',(0.E0,0.E0,1.E0));
#3=DIRECTION('',(1.E0,0.E0,0.E0));
#4=AXIS2_PLACEMENT_3D('',#1,#2,#3);
#6=CARTESIAN_POINT('',(0.E0,0.E0,-2.6E1));
#7=DIRECTION('',(0.E0,0.E0,1.E0));
#8=DIRECTION('',(-1.E0,0.E0,0.E0));
#9=AXIS2_PLACEMENT_3D('',#6,#7,#8);
#11=CARTESIAN_POINT('',(0.E0,0.E0,-2.6E1));
#12=DIRECTION('',(0.E0,0.E0,-1.E0));
#13=DIRECTION('',(1.E0,0.E0,0.E0));
#14=AXIS2_PLACEMENT_3D('',#11,#12,#13);
#16=CARTESIAN_POINT('',(0.E0,0.E0,-2.6E1));
#17=DIRECTION('',(0.E0,0.E0,-1.E0));
#18=DIRECTION('',(-1.E0,0.E0,0.E0));
#19=AXIS2_PLACEMENT_3D('',#16,#17,#18);
#21=DIRECTION('',(0.E0,0.E0,-1.E0));
#22=VECTOR('',#21,3.6E1);
#23=CARTESIAN_POINT('',(5.E-1,0.E0,-2.6E1));
#24=LINE('',#23,#22);
#25=DIRECTION('',(0.E0,0.E0,-1.E0));
#26=VECTOR('',#25,3.6E1);
#27=CARTESIAN_POINT('',(-5.E-1,0.E0,-2.6E1));
#28=LINE('',#27,#26);
#29=CARTESIAN_POINT('',(0.E0,0.E0,-6.2E1));
#30=DIRECTION('',(0.E0,0.E0,1.E0));
#31=DIRECTION('',(1.E0,0.E0,0.E0));
#32=AXIS2_PLACEMENT_3D('',#29,#30,#31);
#34=CARTESIAN_POINT('',(0.E0,0.E0,-6.2E1));
#35=DIRECTION('',(0.E0,0.E0,1.E0));
#36=DIRECTION('',(-1.E0,0.E0,0.E0));
#37=AXIS2_PLACEMENT_3D('',#34,#35,#36);
#39=CARTESIAN_POINT('',(4.05E0,1.231407142921E-9,-2.5E1));
#40=DIRECTION('',(3.040511384333E-10,-1.E0,0.E0));
#41=DIRECTION('',(0.E0,0.E0,-1.E0));
#42=AXIS2_PLACEMENT_3D('',#39,#40,#41);
#44=CARTESIAN_POINT('',(-4.05E0,-1.231406643321E-9,-2.5E1));
#45=DIRECTION('',(-3.040510204722E-10,1.E0,0.E0));
#46=DIRECTION('',(0.E0,0.E0,-1.E0));
#47=AXIS2_PLACEMENT_3D('',#44,#45,#46);
#49=CARTESIAN_POINT('',(0.E0,0.E0,-2.E1));
#50=DIRECTION('',(0.E0,0.E0,-1.E0));
#51=DIRECTION('',(-1.E0,0.E0,0.E0));
#52=AXIS2_PLACEMENT_3D('',#49,#50,#51);
#54=CARTESIAN_POINT('',(0.E0,0.E0,-2.5E1));
#55=DIRECTION('',(0.E0,0.E0,-1.E0));
#56=DIRECTION('',(-1.E0,0.E0,0.E0));
#57=AXIS2_PLACEMENT_3D('',#54,#55,#56);
#59=DIRECTION('',(-7.306159227829E-10,7.528100727083E-10,1.E0));
#60=VECTOR('',#59,5.000000003653E0);
#61=CARTESIAN_POINT('',(5.05E0,1.502152302153E-10,-2.5E1));
#62=LINE('',#61,#60);
#63=DIRECTION('',(-7.071067811865E-1,-5.480805118855E-10,-7.071067811865E-1));
#64=VECTOR('',#63,1.131370849080E0);
#65=CARTESIAN_POINT('',(-4.249999996926E0,-3.294183210295E-9,
-1.919999999693E1));
#66=LINE('',#65,#64);
#67=CARTESIAN_POINT('',(0.E0,0.E0,-1.92E1));
#68=DIRECTION('',(0.E0,0.E0,-1.E0));
#69=DIRECTION('',(-1.E0,0.E0,0.E0));
#70=AXIS2_PLACEMENT_3D('',#67,#68,#69);
#72=DIRECTION('',(0.E0,0.E0,1.E0));
#73=VECTOR('',#72,3.839999999385E1);
#74=CARTESIAN_POINT('',(4.249999996926E0,3.294183657615E-9,-1.919999999693E1));
#75=LINE('',#74,#73);
#76=CARTESIAN_POINT('',(0.E0,0.E0,1.92E1));
#77=DIRECTION('',(0.E0,0.E0,1.E0));
#78=DIRECTION('',(1.E0,0.E0,0.E0));
#79=AXIS2_PLACEMENT_3D('',#76,#77,#78);
#81=CARTESIAN_POINT('',(0.E0,0.E0,-1.92E1));
#82=DIRECTION('',(0.E0,0.E0,-1.E0));
#83=DIRECTION('',(1.E0,0.E0,0.E0));
#84=AXIS2_PLACEMENT_3D('',#81,#82,#83);
#86=DIRECTION('',(0.E0,0.E0,1.E0));
#87=VECTOR('',#86,3.839999999385E1);
#88=CARTESIAN_POINT('',(-4.249999996926E0,-3.294183210295E-9,
-1.919999999693E1));
#89=LINE('',#88,#87);
#90=CARTESIAN_POINT('',(0.E0,0.E0,1.92E1));
#91=DIRECTION('',(0.E0,0.E0,1.E0));
#92=DIRECTION('',(-1.E0,0.E0,0.E0));
#93=AXIS2_PLACEMENT_3D('',#90,#91,#92);
#95=DIRECTION('',(7.071067811865E-1,5.480801802488E-10,-7.071067811865E-1));
#96=VECTOR('',#95,1.131370849080E0);
#97=CARTESIAN_POINT('',(4.249999996926E0,3.294183657615E-9,-1.919999999693E1));
#98=LINE('',#97,#96);
#99=CARTESIAN_POINT('',(0.E0,0.E0,-2.E1));
#100=DIRECTION('',(0.E0,0.E0,-1.E0));
#101=DIRECTION('',(1.E0,0.E0,0.E0));
#102=AXIS2_PLACEMENT_3D('',#99,#100,#101);
#104=CARTESIAN_POINT('',(0.E0,0.E0,-2.5E1));
#105=DIRECTION('',(0.E0,0.E0,-1.E0));
#106=DIRECTION('',(1.E0,0.E0,0.E0));
#107=AXIS2_PLACEMENT_3D('',#104,#105,#106);
#109=DIRECTION('',(7.306159227829E-10,-7.528099760150E-10,1.E0));
#110=VECTOR('',#109,5.000000003653E0);
#111=CARTESIAN_POINT('',(-5.05E0,-1.502156415660E-10,-2.5E1));
#112=LINE('',#111,#110);
#113=DIRECTION('',(-7.071067811865E-1,-5.480802518390E-10,7.071067811865E-1));
#114=VECTOR('',#113,1.131370849080E0);
#115=CARTESIAN_POINT('',(-4.249999996926E0,-3.294184651542E-9,
1.919999999693E1));
#116=LINE('',#115,#114);
#117=DIRECTION('',(7.071067811865E-1,5.480797595927E-10,7.071067811865E-1));
#118=VECTOR('',#117,1.131370849080E0);
#119=CARTESIAN_POINT('',(4.249999996926E0,3.294184107820E-9,1.919999999693E1));
#120=LINE('',#119,#118);
#121=CARTESIAN_POINT('',(0.E0,0.E0,2.E1));
#122=DIRECTION('',(0.E0,0.E0,1.E0));
#123=DIRECTION('',(1.E0,0.E0,0.E0));
#124=AXIS2_PLACEMENT_3D('',#121,#122,#123);
#126=DIRECTION('',(-7.306152122402E-10,7.528101702614E-10,-1.E0));
#127=VECTOR('',#126,5.000000003653E0);
#128=CARTESIAN_POINT('',(5.05E0,1.502147167371E-10,2.5E1));
#129=LINE('',#128,#127);
#130=CARTESIAN_POINT('',(0.E0,0.E0,2.5E1));
#131=DIRECTION('',(0.E0,0.E0,1.E0));
#132=DIRECTION('',(1.E0,0.E0,0.E0));
#133=AXIS2_PLACEMENT_3D('',#130,#131,#132);
#135=CARTESIAN_POINT('',(0.E0,0.E0,2.E1));
#136=DIRECTION('',(0.E0,0.E0,1.E0));
#137=DIRECTION('',(-1.E0,0.E0,0.E0));
#138=AXIS2_PLACEMENT_3D('',#135,#136,#137);
#140=DIRECTION('',(7.306155675115E-10,-7.528103844460E-10,-1.E0));
#141=VECTOR('',#140,5.000000003653E0);
#142=CARTESIAN_POINT('',(-5.05E0,-1.502147464487E-10,2.5E1));
#143=LINE('',#142,#141);
#144=CARTESIAN_POINT('',(0.E0,0.E0,2.5E1));
#145=DIRECTION('',(0.E0,0.E0,1.E0));
#146=DIRECTION('',(-1.E0,0.E0,0.E0));
#147=AXIS2_PLACEMENT_3D('',#144,#145,#146);
#149=CARTESIAN_POINT('',(-4.05E0,7.495274123581E-10,2.5E1));
#150=DIRECTION('',(-1.850684917815E-10,-1.E0,0.E0));
#151=DIRECTION('',(0.E0,0.E0,1.E0));
#152=AXIS2_PLACEMENT_3D('',#149,#150,#151);
#154=CARTESIAN_POINT('',(0.E0,0.E0,2.6E1));
#155=DIRECTION('',(0.E0,0.E0,1.E0));
#156=DIRECTION('',(1.E0,0.E0,0.E0));
#157=AXIS2_PLACEMENT_3D('',#154,#155,#156);
#159=CARTESIAN_POINT('',(0.E0,0.E0,2.6E1));
#160=DIRECTION('',(0.E0,0.E0,1.E0));
#161=DIRECTION('',(-1.E0,0.E0,0.E0));
#162=AXIS2_PLACEMENT_3D('',#159,#160,#161);
#164=CARTESIAN_POINT('',(0.E0,0.E0,2.6E1));
#165=DIRECTION('',(0.E0,0.E0,1.E0));
#166=DIRECTION('',(-1.E0,0.E0,0.E0));
#167=AXIS2_PLACEMENT_3D('',#164,#165,#166);
#169=CARTESIAN_POINT('',(0.E0,0.E0,2.6E1));
#170=DIRECTION('',(0.E0,0.E0,1.E0));
#171=DIRECTION('',(1.E0,0.E0,0.E0));
#172=AXIS2_PLACEMENT_3D('',#169,#170,#171);
#174=DIRECTION('',(0.E0,0.E0,1.E0));
#175=VECTOR('',#174,3.6E1);
#176=CARTESIAN_POINT('',(5.E-1,0.E0,2.6E1));
#177=LINE('',#176,#175);
#178=DIRECTION('',(0.E0,0.E0,1.E0));
#179=VECTOR('',#178,3.6E1);
#180=CARTESIAN_POINT('',(-5.E-1,0.E0,2.6E1));
#181=LINE('',#180,#179);
#182=CARTESIAN_POINT('',(0.E0,0.E0,6.2E1));
#183=DIRECTION('',(0.E0,0.E0,1.E0));
#184=DIRECTION('',(1.E0,0.E0,0.E0));
#185=AXIS2_PLACEMENT_3D('',#182,#183,#184);
#187=CARTESIAN_POINT('',(0.E0,0.E0,6.2E1));
#188=DIRECTION('',(0.E0,0.E0,1.E0));
#189=DIRECTION('',(-1.E0,0.E0,0.E0));
#190=AXIS2_PLACEMENT_3D('',#187,#188,#189);
#192=CARTESIAN_POINT('',(4.05E0,-7.495271903135E-10,2.5E1));
#193=DIRECTION('',(1.850684397398E-10,1.E0,0.E0));
#194=DIRECTION('',(0.E0,0.E0,1.E0));
#195=AXIS2_PLACEMENT_3D('',#192,#193,#194);
#197=CARTESIAN_POINT('',(5.E-1,0.E0,6.2E1));
#198=CARTESIAN_POINT('',(-5.E-1,0.E0,6.2E1));
#199=VERTEX_POINT('',#197);
#200=VERTEX_POINT('',#198);
#201=CARTESIAN_POINT('',(5.E-1,0.E0,2.6E1));
#202=CARTESIAN_POINT('',(-5.E-1,0.E0,2.6E1));
#203=VERTEX_POINT('',#201);
#204=VERTEX_POINT('',#202);
#205=CARTESIAN_POINT('',(5.E-1,0.E0,-6.2E1));
#206=CARTESIAN_POINT('',(-5.E-1,0.E0,-6.2E1));
#207=VERTEX_POINT('',#205);
#208=VERTEX_POINT('',#206);
#209=CARTESIAN_POINT('',(5.E-1,0.E0,-2.6E1));
#210=VERTEX_POINT('',#209);
#211=CARTESIAN_POINT('',(-5.E-1,0.E0,-2.6E1));
#212=VERTEX_POINT('',#211);
#213=CARTESIAN_POINT('',(-4.05E0,0.E0,2.6E1));
#214=CARTESIAN_POINT('',(4.05E0,0.E0,2.6E1));
#215=VERTEX_POINT('',#213);
#216=VERTEX_POINT('',#214);
#217=CARTESIAN_POINT('',(-5.05E0,0.E0,2.5E1));
#218=CARTESIAN_POINT('',(5.05E0,0.E0,2.5E1));
#219=VERTEX_POINT('',#217);
#220=VERTEX_POINT('',#218);
#221=CARTESIAN_POINT('',(4.05E0,0.E0,-2.6E1));
#222=CARTESIAN_POINT('',(-4.05E0,0.E0,-2.6E1));
#223=VERTEX_POINT('',#221);
#224=VERTEX_POINT('',#222);
#225=CARTESIAN_POINT('',(5.05E0,0.E0,-2.5E1));
#226=CARTESIAN_POINT('',(-5.05E0,0.E0,-2.5E1));
#227=VERTEX_POINT('',#225);
#228=VERTEX_POINT('',#226);
#229=CARTESIAN_POINT('',(4.25E0,0.E0,-1.92E1));
#230=CARTESIAN_POINT('',(-4.25E0,0.E0,-1.92E1));
#231=VERTEX_POINT('',#229);
#232=VERTEX_POINT('',#230);
#233=CARTESIAN_POINT('',(5.05E0,0.E0,-2.E1));
#234=CARTESIAN_POINT('',(-5.05E0,0.E0,-2.E1));
#235=VERTEX_POINT('',#233);
#236=VERTEX_POINT('',#234);
#237=CARTESIAN_POINT('',(-4.25E0,0.E0,1.92E1));
#238=CARTESIAN_POINT('',(4.25E0,0.E0,1.92E1));
#239=VERTEX_POINT('',#237);
#240=VERTEX_POINT('',#238);
#241=CARTESIAN_POINT('',(-5.05E0,0.E0,2.E1));
#242=CARTESIAN_POINT('',(5.05E0,0.E0,2.E1));
#243=VERTEX_POINT('',#241);
#244=VERTEX_POINT('',#242);
#245=CARTESIAN_POINT('',(0.E0,0.E0,-2.6E1));
#246=DIRECTION('',(0.E0,0.E0,1.E0));
#247=DIRECTION('',(1.E0,0.E0,0.E0));
#248=AXIS2_PLACEMENT_3D('',#245,#246,#247);
#249=PLANE('',#248);
#251=ORIENTED_EDGE('',*,*,#250,.F.);
#253=ORIENTED_EDGE('',*,*,#252,.F.);
#254=EDGE_LOOP('',(#251,#253));
#255=FACE_OUTER_BOUND('',#254,.F.);
#257=ORIENTED_EDGE('',*,*,#256,.F.);
#259=ORIENTED_EDGE('',*,*,#258,.F.);
#260=EDGE_LOOP('',(#257,#259));
#261=FACE_BOUND('',#260,.F.);
#262=ADVANCED_FACE('',(#255,#261),#249,.F.);
#263=CARTESIAN_POINT('',(0.E0,0.E0,-2.6E1));
#264=DIRECTION('',(0.E0,0.E0,1.E0));
#265=DIRECTION('',(1.E0,0.E0,0.E0));
#266=AXIS2_PLACEMENT_3D('',#263,#264,#265);
#267=CYLINDRICAL_SURFACE('',#266,5.E-1);
#269=ORIENTED_EDGE('',*,*,#268,.F.);
#270=ORIENTED_EDGE('',*,*,#256,.T.);
#272=ORIENTED_EDGE('',*,*,#271,.T.);
#274=ORIENTED_EDGE('',*,*,#273,.F.);
#275=EDGE_LOOP('',(#269,#270,#272,#274));
#276=FACE_OUTER_BOUND('',#275,.F.);
#277=ADVANCED_FACE('',(#276),#267,.T.);
#278=CARTESIAN_POINT('',(0.E0,0.E0,-2.6E1));
#279=DIRECTION('',(0.E0,0.E0,1.E0));
#280=DIRECTION('',(1.E0,0.E0,0.E0));
#281=AXIS2_PLACEMENT_3D('',#278,#279,#280);
#282=CYLINDRICAL_SURFACE('',#281,5.E-1);
#283=ORIENTED_EDGE('',*,*,#268,.T.);
#285=ORIENTED_EDGE('',*,*,#284,.F.);
#286=ORIENTED_EDGE('',*,*,#271,.F.);
#287=ORIENTED_EDGE('',*,*,#258,.T.);
#288=EDGE_LOOP('',(#283,#285,#286,#287));
#289=FACE_OUTER_BOUND('',#288,.F.);
#290=ADVANCED_FACE('',(#289),#282,.T.);
#291=CARTESIAN_POINT('',(0.E0,0.E0,-6.2E1));
#292=DIRECTION('',(0.E0,0.E0,1.E0));
#293=DIRECTION('',(1.E0,0.E0,0.E0));
#294=AXIS2_PLACEMENT_3D('',#291,#292,#293);
#295=PLANE('',#294);
#296=ORIENTED_EDGE('',*,*,#273,.T.);
#297=ORIENTED_EDGE('',*,*,#284,.T.);
#298=EDGE_LOOP('',(#296,#297));
#299=FACE_OUTER_BOUND('',#298,.F.);
#300=ADVANCED_FACE('',(#299),#295,.F.);
#301=CARTESIAN_POINT('',(0.E0,0.E0,-2.5E1));
#302=DIRECTION('',(0.E0,0.E0,1.E0));
#303=DIRECTION('',(9.990646633223E-1,4.324116673628E-2,0.E0));
#304=AXIS2_PLACEMENT_3D('',#301,#302,#303);
#305=TOROIDAL_SURFACE('',#304,4.05E0,1.E0);
#306=ORIENTED_EDGE('',*,*,#250,.T.);
#308=ORIENTED_EDGE('',*,*,#307,.T.);
#310=ORIENTED_EDGE('',*,*,#309,.F.);
#312=ORIENTED_EDGE('',*,*,#311,.F.);
#313=EDGE_LOOP('',(#306,#308,#310,#312));
#314=FACE_OUTER_BOUND('',#313,.F.);
#315=ADVANCED_FACE('',(#314),#305,.T.);
#316=CARTESIAN_POINT('',(0.E0,0.E0,-2.5E1));
#317=DIRECTION('',(0.E0,0.E0,1.E0));
#318=DIRECTION('',(-9.990646633223E-1,-4.324116673628E-2,0.E0));
#319=AXIS2_PLACEMENT_3D('',#316,#317,#318);
#320=TOROIDAL_SURFACE('',#319,4.05E0,1.E0);
#321=ORIENTED_EDGE('',*,*,#252,.T.);
#322=ORIENTED_EDGE('',*,*,#311,.T.);
#324=ORIENTED_EDGE('',*,*,#323,.F.);
#325=ORIENTED_EDGE('',*,*,#307,.F.);
#326=EDGE_LOOP('',(#321,#322,#324,#325));
#327=FACE_OUTER_BOUND('',#326,.F.);
#328=ADVANCED_FACE('',(#327),#320,.T.);
#329=CARTESIAN_POINT('',(0.E0,0.E0,-2.6E1));
#330=DIRECTION('',(0.E0,0.E0,1.E0));
#331=DIRECTION('',(1.E0,0.E0,0.E0));
#332=AXIS2_PLACEMENT_3D('',#329,#330,#331);
#333=CYLINDRICAL_SURFACE('',#332,5.05E0);
#335=ORIENTED_EDGE('',*,*,#334,.F.);
#337=ORIENTED_EDGE('',*,*,#336,.F.);
#338=ORIENTED_EDGE('',*,*,#323,.T.);
#340=ORIENTED_EDGE('',*,*,#339,.T.);
#341=EDGE_LOOP('',(#335,#337,#338,#340));
#342=FACE_OUTER_BOUND('',#341,.F.);
#343=ADVANCED_FACE('',(#342),#333,.T.);
#344=CARTESIAN_POINT('',(0.E0,0.E0,-1.959999999715E1));
#345=DIRECTION('',(0.E0,0.E0,-1.E0));
#346=DIRECTION('',(0.E0,-1.E0,0.E0));
#347=AXIS2_PLACEMENT_3D('',#344,#345,#346);
#348=CONICAL_SURFACE('',#347,4.649999997147E0,4.5E1);
#350=ORIENTED_EDGE('',*,*,#349,.F.);
#352=ORIENTED_EDGE('',*,*,#351,.T.);
#353=ORIENTED_EDGE('',*,*,#334,.T.);
#355=ORIENTED_EDGE('',*,*,#354,.F.);
#356=EDGE_LOOP('',(#350,#352,#353,#355));
#357=FACE_OUTER_BOUND('',#356,.F.);
#358=ADVANCED_FACE('',(#357),#348,.T.);
#359=CARTESIAN_POINT('',(0.E0,0.E0,-2.6E1));
#360=DIRECTION('',(0.E0,0.E0,1.E0));
#361=DIRECTION('',(1.E0,0.E0,0.E0));
#362=AXIS2_PLACEMENT_3D('',#359,#360,#361);
#363=CYLINDRICAL_SURFACE('',#362,4.25E0);
#364=ORIENTED_EDGE('',*,*,#349,.T.);
#366=ORIENTED_EDGE('',*,*,#365,.T.);
#368=ORIENTED_EDGE('',*,*,#367,.T.);
#370=ORIENTED_EDGE('',*,*,#369,.F.);
#371=EDGE_LOOP('',(#364,#366,#368,#370));
#372=FACE_OUTER_BOUND('',#371,.F.);
#373=ADVANCED_FACE('',(#372),#363,.T.);
#374=CARTESIAN_POINT('',(0.E0,0.E0,-2.6E1));
#375=DIRECTION('',(0.E0,0.E0,1.E0));
#376=DIRECTION('',(1.E0,0.E0,0.E0));
#377=AXIS2_PLACEMENT_3D('',#374,#375,#376);
#378=CYLINDRICAL_SURFACE('',#377,4.25E0);
#380=ORIENTED_EDGE('',*,*,#379,.T.);
#381=ORIENTED_EDGE('',*,*,#369,.T.);
#383=ORIENTED_EDGE('',*,*,#382,.T.);
#384=ORIENTED_EDGE('',*,*,#365,.F.);
#385=EDGE_LOOP('',(#380,#381,#383,#384));
#386=FACE_OUTER_BOUND('',#385,.F.);
#387=ADVANCED_FACE('',(#386),#378,.T.);
#388=CARTESIAN_POINT('',(0.E0,0.E0,-1.959999999715E1));
#389=DIRECTION('',(0.E0,0.E0,-1.E0));
#390=DIRECTION('',(0.E0,-1.E0,0.E0));
#391=AXIS2_PLACEMENT_3D('',#388,#389,#390);
#392=CONICAL_SURFACE('',#391,4.649999997147E0,4.5E1);
#393=ORIENTED_EDGE('',*,*,#379,.F.);
#394=ORIENTED_EDGE('',*,*,#354,.T.);
#396=ORIENTED_EDGE('',*,*,#395,.T.);
#397=ORIENTED_EDGE('',*,*,#351,.F.);
#398=EDGE_LOOP('',(#393,#394,#396,#397));
#399=FACE_OUTER_BOUND('',#398,.F.);
#400=ADVANCED_FACE('',(#399),#392,.T.);
#401=CARTESIAN_POINT('',(0.E0,0.E0,-2.6E1));
#402=DIRECTION('',(0.E0,0.E0,1.E0));
#403=DIRECTION('',(1.E0,0.E0,0.E0));
#404=AXIS2_PLACEMENT_3D('',#401,#402,#403);
#405=CYLINDRICAL_SURFACE('',#404,5.05E0);
#406=ORIENTED_EDGE('',*,*,#395,.F.);
#407=ORIENTED_EDGE('',*,*,#339,.F.);
#408=ORIENTED_EDGE('',*,*,#309,.T.);
#409=ORIENTED_EDGE('',*,*,#336,.T.);
#410=EDGE_LOOP('',(#406,#407,#408,#409));
#411=FACE_OUTER_BOUND('',#410,.F.);
#412=ADVANCED_FACE('',(#411),#405,.T.);
#413=CARTESIAN_POINT('',(0.E0,0.E0,1.959999999715E1));
#414=DIRECTION('',(0.E0,0.E0,1.E0));
#415=DIRECTION('',(0.E0,-1.E0,0.E0));
#416=AXIS2_PLACEMENT_3D('',#413,#414,#415);
#417=CONICAL_SURFACE('',#416,4.649999997147E0,4.5E1);
#418=ORIENTED_EDGE('',*,*,#382,.F.);
#420=ORIENTED_EDGE('',*,*,#419,.T.);
#422=ORIENTED_EDGE('',*,*,#421,.T.);
#424=ORIENTED_EDGE('',*,*,#423,.F.);
#425=EDGE_LOOP('',(#418,#420,#422,#424));
#426=FACE_OUTER_BOUND('',#425,.F.);
#427=ADVANCED_FACE('',(#426),#417,.T.);
#428=CARTESIAN_POINT('',(0.E0,0.E0,1.959999999715E1));
#429=DIRECTION('',(0.E0,0.E0,1.E0));
#430=DIRECTION('',(0.E0,-1.E0,0.E0));
#431=AXIS2_PLACEMENT_3D('',#428,#429,#430);
#432=CONICAL_SURFACE('',#431,4.649999997147E0,4.5E1);
#433=ORIENTED_EDGE('',*,*,#367,.F.);
#434=ORIENTED_EDGE('',*,*,#423,.T.);
#436=ORIENTED_EDGE('',*,*,#435,.T.);
#437=ORIENTED_EDGE('',*,*,#419,.F.);
#438=EDGE_LOOP('',(#433,#434,#436,#437));
#439=FACE_OUTER_BOUND('',#438,.F.);
#440=ADVANCED_FACE('',(#439),#432,.T.);
#441=CARTESIAN_POINT('',(0.E0,0.E0,2.6E1));
#442=DIRECTION('',(0.E0,0.E0,1.E0));
#443=DIRECTION('',(1.E0,0.E0,0.E0));
#444=AXIS2_PLACEMENT_3D('',#441,#442,#443);
#445=CYLINDRICAL_SURFACE('',#444,5.05E0);
#446=ORIENTED_EDGE('',*,*,#435,.F.);
#448=ORIENTED_EDGE('',*,*,#447,.F.);
#450=ORIENTED_EDGE('',*,*,#449,.T.);
#452=ORIENTED_EDGE('',*,*,#451,.T.);
#453=EDGE_LOOP('',(#446,#448,#450,#452));
#454=FACE_OUTER_BOUND('',#453,.F.);
#455=ADVANCED_FACE('',(#454),#445,.T.);
#456=CARTESIAN_POINT('',(0.E0,0.E0,2.6E1));
#457=DIRECTION('',(0.E0,0.E0,1.E0));
#458=DIRECTION('',(1.E0,0.E0,0.E0));
#459=AXIS2_PLACEMENT_3D('',#456,#457,#458);
#460=CYLINDRICAL_SURFACE('',#459,5.05E0);
#461=ORIENTED_EDGE('',*,*,#421,.F.);
#462=ORIENTED_EDGE('',*,*,#451,.F.);
#464=ORIENTED_EDGE('',*,*,#463,.T.);
#465=ORIENTED_EDGE('',*,*,#447,.T.);
#466=EDGE_LOOP('',(#461,#462,#464,#465));
#467=FACE_OUTER_BOUND('',#466,.F.);
#468=ADVANCED_FACE('',(#467),#460,.T.);
#469=CARTESIAN_POINT('',(0.E0,0.E0,2.5E1));
#470=DIRECTION('',(0.E0,0.E0,1.E0));
#471=DIRECTION('',(-9.995364616990E-1,3.044440398941E-2,0.E0));
#472=AXIS2_PLACEMENT_3D('',#469,#470,#471);
#473=TOROIDAL_SURFACE('',#472,4.05E0,1.E0);
#475=ORIENTED_EDGE('',*,*,#474,.T.);
#477=ORIENTED_EDGE('',*,*,#476,.T.);
#478=ORIENTED_EDGE('',*,*,#463,.F.);
#480=ORIENTED_EDGE('',*,*,#479,.F.);
#481=EDGE_LOOP('',(#475,#477,#478,#480));
#482=FACE_OUTER_BOUND('',#481,.F.);
#483=ADVANCED_FACE('',(#482),#473,.T.);
#484=CARTESIAN_POINT('',(0.E0,0.E0,2.6E1));
#485=DIRECTION('',(0.E0,0.E0,1.E0));
#486=DIRECTION('',(1.E0,0.E0,0.E0));
#487=AXIS2_PLACEMENT_3D('',#484,#485,#486);
#488=PLANE('',#487);
#489=ORIENTED_EDGE('',*,*,#474,.F.);
#491=ORIENTED_EDGE('',*,*,#490,.F.);
#492=EDGE_LOOP('',(#489,#491));
#493=FACE_OUTER_BOUND('',#492,.F.);
#495=ORIENTED_EDGE('',*,*,#494,.T.);
#497=ORIENTED_EDGE('',*,*,#496,.T.);
#498=EDGE_LOOP('',(#495,#497));
#499=FACE_BOUND('',#498,.F.);
#500=ADVANCED_FACE('',(#493,#499),#488,.T.);
#501=CARTESIAN_POINT('',(0.E0,0.E0,2.6E1));
#502=DIRECTION('',(0.E0,0.E0,1.E0));
#503=DIRECTION('',(1.E0,0.E0,0.E0));
#504=AXIS2_PLACEMENT_3D('',#501,#502,#503);
#505=CYLINDRICAL_SURFACE('',#504,5.E-1);
#506=ORIENTED_EDGE('',*,*,#494,.F.);
#508=ORIENTED_EDGE('',*,*,#507,.T.);
#510=ORIENTED_EDGE('',*,*,#509,.T.);
#512=ORIENTED_EDGE('',*,*,#511,.F.);
#513=EDGE_LOOP('',(#506,#508,#510,#512));
#514=FACE_OUTER_BOUND('',#513,.F.);
#515=ADVANCED_FACE('',(#514),#505,.T.);
#516=CARTESIAN_POINT('',(0.E0,0.E0,2.6E1));
#517=DIRECTION('',(0.E0,0.E0,1.E0));
#518=DIRECTION('',(1.E0,0.E0,0.E0));
#519=AXIS2_PLACEMENT_3D('',#516,#517,#518);
#520=CYLINDRICAL_SURFACE('',#519,5.E-1);
#521=ORIENTED_EDGE('',*,*,#496,.F.);
#522=ORIENTED_EDGE('',*,*,#511,.T.);
#524=ORIENTED_EDGE('',*,*,#523,.T.);
#525=ORIENTED_EDGE('',*,*,#507,.F.);
#526=EDGE_LOOP('',(#521,#522,#524,#525));
#527=FACE_OUTER_BOUND('',#526,.F.);
#528=ADVANCED_FACE('',(#527),#520,.T.);
#529=CARTESIAN_POINT('',(0.E0,0.E0,6.2E1));
#530=DIRECTION('',(0.E0,0.E0,1.E0));
#531=DIRECTION('',(1.E0,0.E0,0.E0));
#532=AXIS2_PLACEMENT_3D('',#529,#530,#531);
#533=PLANE('',#532);
#534=ORIENTED_EDGE('',*,*,#509,.F.);
#535=ORIENTED_EDGE('',*,*,#523,.F.);
#536=EDGE_LOOP('',(#534,#535));
#537=FACE_OUTER_BOUND('',#536,.F.);
#538=ADVANCED_FACE('',(#537),#533,.T.);
#539=CARTESIAN_POINT('',(0.E0,0.E0,2.5E1));
#540=DIRECTION('',(0.E0,0.E0,1.E0));
#541=DIRECTION('',(9.995364616990E-1,-3.044440398941E-2,0.E0));
#542=AXIS2_PLACEMENT_3D('',#539,#540,#541);
#543=TOROIDAL_SURFACE('',#542,4.05E0,1.E0);
#544=ORIENTED_EDGE('',*,*,#490,.T.);
#545=ORIENTED_EDGE('',*,*,#479,.T.);
#546=ORIENTED_EDGE('',*,*,#449,.F.);
#547=ORIENTED_EDGE('',*,*,#476,.F.);
#548=EDGE_LOOP('',(#544,#545,#546,#547));
#549=FACE_OUTER_BOUND('',#548,.F.);
#550=ADVANCED_FACE('',(#549),#543,.T.);
#554=DIMENSIONAL_EXPONENTS(0.E0,0.E0,0.E0,0.E0,0.E0,0.E0,0.E0);
#556=PLANE_ANGLE_MEASURE_WITH_UNIT(PLANE_ANGLE_MEASURE(1.745329251994E-2),#555);
#557=(CONVERSION_BASED_UNIT('DEGREE',#556)NAMED_UNIT(*)PLANE_ANGLE_UNIT());
#559=UNCERTAINTY_MEASURE_WITH_UNIT(LENGTH_MEASURE(1.E-2),#553,'closure',
'Maximum model space distance between geometric entities at asserted connectivities');
#560=(GEOMETRIC_REPRESENTATION_CONTEXT(3)GLOBAL_UNCERTAINTY_ASSIGNED_CONTEXT((
#559))GLOBAL_UNIT_ASSIGNED_CONTEXT((#553,#557,#558))REPRESENTATION_CONTEXT
('ID1','3'));
#562=APPLICATION_CONTEXT(
'CONFIGURATION CONTROLLED 3D DESIGNS OF MECHANICAL PARTS AND ASSEMBLIES');
#563=APPLICATION_PROTOCOL_DEFINITION('international standard',
'config_control_design',1994,#562);
#564=DESIGN_CONTEXT('',#562,'design');
#565=MECHANICAL_CONTEXT('',#562,'mechanical');
#566=PRODUCT('APLR1000K300RSE','APLR1000K300RSE','NOT SPECIFIED',(#565));
#567=PRODUCT_DEFINITION_FORMATION_WITH_SPECIFIED_SOURCE('5','LAST_VERSION',#566,
.MADE.);
#571=PRODUCT_CATEGORY('part','');
#572=PRODUCT_RELATED_PRODUCT_CATEGORY('detail','',(#566));
#573=PRODUCT_CATEGORY_RELATIONSHIP('','',#571,#572);
#574=SECURITY_CLASSIFICATION_LEVEL('unclassified');
#575=SECURITY_CLASSIFICATION('','',#574);
#576=CC_DESIGN_SECURITY_CLASSIFICATION(#575,(#567));
#577=APPROVAL_STATUS('approved');
#578=APPROVAL(#577,'');
#579=CC_DESIGN_APPROVAL(#578,(#575,#567,#568));
#580=CALENDAR_DATE(123,7,2);
#581=COORDINATED_UNIVERSAL_TIME_OFFSET(8,0,.AHEAD.);
#582=LOCAL_TIME(8,52,9.E0,#581);
#583=DATE_AND_TIME(#580,#582);
#584=APPROVAL_DATE_TIME(#583,#578);
#585=DATE_TIME_ROLE('creation_date');
#586=CC_DESIGN_DATE_AND_TIME_ASSIGNMENT(#583,#585,(#568));
#587=DATE_TIME_ROLE('classification_date');
#588=CC_DESIGN_DATE_AND_TIME_ASSIGNMENT(#583,#587,(#575));
#589=PERSON('UNSPECIFIED','UNSPECIFIED',$,$,$,$);
#590=ORGANIZATION('UNSPECIFIED','UNSPECIFIED','UNSPECIFIED');
#591=PERSON_AND_ORGANIZATION(#589,#590);
#592=APPROVAL_ROLE('approver');
#593=APPROVAL_PERSON_ORGANIZATION(#591,#578,#592);
#594=PERSON_AND_ORGANIZATION_ROLE('creator');
#595=CC_DESIGN_PERSON_AND_ORGANIZATION_ASSIGNMENT(#591,#594,(#567,#568));
#596=PERSON_AND_ORGANIZATION_ROLE('design_supplier');
#597=CC_DESIGN_PERSON_AND_ORGANIZATION_ASSIGNMENT(#591,#596,(#567));
#598=PERSON_AND_ORGANIZATION_ROLE('classification_officer');
#599=CC_DESIGN_PERSON_AND_ORGANIZATION_ASSIGNMENT(#591,#598,(#575));
#600=PERSON_AND_ORGANIZATION_ROLE('design_owner');
#601=CC_DESIGN_PERSON_AND_ORGANIZATION_ASSIGNMENT(#591,#600,(#566));
#5=CIRCLE('',#4,5.E-1);
#10=CIRCLE('',#9,5.E-1);
#15=CIRCLE('',#14,4.05E0);
#20=CIRCLE('',#19,4.05E0);
#33=CIRCLE('',#32,5.E-1);
#38=CIRCLE('',#37,5.E-1);
#43=CIRCLE('',#42,1.E0);
#48=CIRCLE('',#47,1.E0);
#53=CIRCLE('',#52,5.05E0);
#58=CIRCLE('',#57,5.05E0);
#71=CIRCLE('',#70,4.25E0);
#80=CIRCLE('',#79,4.25E0);
#85=CIRCLE('',#84,4.25E0);
#94=CIRCLE('',#93,4.25E0);
#103=CIRCLE('',#102,5.05E0);
#108=CIRCLE('',#107,5.05E0);
#125=CIRCLE('',#124,5.05E0);
#134=CIRCLE('',#133,5.05E0);
#139=CIRCLE('',#138,5.05E0);
#148=CIRCLE('',#147,5.05E0);
#153=CIRCLE('',#152,1.E0);
#158=CIRCLE('',#157,5.E-1);
#163=CIRCLE('',#162,5.E-1);
#168=CIRCLE('',#167,4.05E0);
#173=CIRCLE('',#172,4.05E0);
#186=CIRCLE('',#185,5.E-1);
#191=CIRCLE('',#190,5.E-1);
#196=CIRCLE('',#195,1.E0);
#250=EDGE_CURVE('',#223,#224,#15,.T.);
#252=EDGE_CURVE('',#224,#223,#20,.T.);
#256=EDGE_CURVE('',#210,#212,#5,.T.);
#258=EDGE_CURVE('',#212,#210,#10,.T.);
#268=EDGE_CURVE('',#210,#207,#24,.T.);
#271=EDGE_CURVE('',#212,#208,#28,.T.);
#273=EDGE_CURVE('',#207,#208,#33,.T.);
#284=EDGE_CURVE('',#208,#207,#38,.T.);
#307=EDGE_CURVE('',#224,#228,#48,.T.);
#309=EDGE_CURVE('',#227,#228,#108,.T.);
#311=EDGE_CURVE('',#223,#227,#43,.T.);
#323=EDGE_CURVE('',#228,#227,#58,.T.);
#334=EDGE_CURVE('',#236,#235,#53,.T.);
#336=EDGE_CURVE('',#228,#236,#112,.T.);
#339=EDGE_CURVE('',#227,#235,#62,.T.);
#349=EDGE_CURVE('',#232,#231,#71,.T.);
#351=EDGE_CURVE('',#232,#236,#66,.T.);
#354=EDGE_CURVE('',#231,#235,#98,.T.);
#365=EDGE_CURVE('',#231,#240,#75,.T.);
#367=EDGE_CURVE('',#240,#239,#80,.T.);
#369=EDGE_CURVE('',#232,#239,#89,.T.);
#379=EDGE_CURVE('',#231,#232,#85,.T.);
#382=EDGE_CURVE('',#239,#240,#94,.T.);
#395=EDGE_CURVE('',#235,#236,#103,.T.);
#419=EDGE_CURVE('',#239,#243,#116,.T.);
#421=EDGE_CURVE('',#243,#244,#139,.T.);
#423=EDGE_CURVE('',#240,#244,#120,.T.);
#435=EDGE_CURVE('',#244,#243,#125,.T.);
#447=EDGE_CURVE('',#220,#244,#129,.T.);
#449=EDGE_CURVE('',#220,#219,#134,.T.);
#451=EDGE_CURVE('',#219,#243,#143,.T.);
#463=EDGE_CURVE('',#219,#220,#148,.T.);
#474=EDGE_CURVE('',#215,#216,#168,.T.);
#476=EDGE_CURVE('',#216,#220,#196,.T.);
#479=EDGE_CURVE('',#215,#219,#153,.T.);
#490=EDGE_CURVE('',#216,#215,#173,.T.);
#494=EDGE_CURVE('',#203,#204,#158,.T.);
#496=EDGE_CURVE('',#204,#203,#163,.T.);
#507=EDGE_CURVE('',#203,#199,#177,.T.);
#509=EDGE_CURVE('',#199,#200,#186,.T.);
#511=EDGE_CURVE('',#204,#200,#181,.T.);
#523=EDGE_CURVE('',#200,#199,#191,.T.);
#551=CLOSED_SHELL('',(#262,#277,#290,#300,#315,#328,#343,#358,#373,#387,#400,
#412,#427,#440,#455,#468,#483,#500,#515,#528,#538,#550));
#552=MANIFOLD_SOLID_BREP('',#551);
#553=(LENGTH_UNIT()NAMED_UNIT(*)SI_UNIT(.MILLI.,.METRE.));
#555=(NAMED_UNIT(*)PLANE_ANGLE_UNIT()SI_UNIT($,.RADIAN.));
#558=(NAMED_UNIT(*)SI_UNIT($,.STERADIAN.)SOLID_ANGLE_UNIT());
#561=ADVANCED_BREP_SHAPE_REPRESENTATION('',(#552),#560);
#568=PRODUCT_DEFINITION('design','',#567,#564);
#569=PRODUCT_DEFINITION_SHAPE('','SHAPE FOR APLR1000K300RSE.',#568);
#570=SHAPE_DEFINITION_REPRESENTATION(#569,#561);
ENDSEC;
END-ISO-10303-21;
